e|-------------------------------------------|

B|-------------------------------------------|

G|-----14--16--16b18--16b18--14--16b18-------|

D|--14--------------------------------- 14---|

A|-------------------------------------------|

E|-------------------------------------------|

e|--------------------------------15---------------------------------|

B|----15--15p14-----14--17--17b19----17b19--17r---17b19--------------|

G|-14------------14---------------------------------------14---16b18-|

D|-------------------------------------------------------------------|

A|-------------------------------------------------------------------|

E|-------------------------------------------------------------------|

A               D               A

If you could see inside my heart,

            F#m                  D      A

you'd see a loneliness right from the start.

               F#m D        A  A/G#  F#m

Feels like laughing love has passed me by.

             A         E        D  C/D  B  A

These days I need no reason to cry.

A                D A

If you could feel the way I feel,

              F#m          D A

you'd know that every word I say is real.

        F#m        D                  A  A/G#  F#m

Seems like laughing love can pass you by.

                    A           E               D  C/D  B  A  

These days I need no reason to cry.

A  A/G  F#m E

E          D           A   A/G#   F#m  E 

I always knew I would have to let you go.

                    E           D     F#m

The years go by and the only thing I know

A              E

is that I love you still.

A                     D               A

If I could see your face today,

                  F#m          D       A

then all the emptiness'd be far away.

        F#m                       D               A   A/G#  F#m

All the loneliness would pass me by.

              A                     E         D  C/D  B  A 

Then I would have no reason to cry.

Intro Lick

Solo - F#m

Thursday the 2nd. CJ2O - Joomla Site Templates