C     Am7                C     Am7

Come away with me in the night

C     Am7

Come away with me

        Em       F(add9)  C    Am7

And I will write you a song

C     Am7               C    Am7

Come away with me on a bus

C     Am7            Em          F(add9)

Come away where they can't tempt us

         C

With their lies

G           F(add9)              C

I want to walk with you

C                                   G

On a cloudy day

G                   F(add9)         C

In fields where the yellow grass grows knee-high

G                     C

So won't you try to come

C     Am7                    C     Am7

Come away with me and we'll kiss

Am7

On a mountaintop

C     Am7

Come away with me

      Em       F(add9)      C

And I'll never stop loving you

                                SOLO

e|-------------------------------------------------------------------------------|

B|----------------------------------------------------------------------------5~-|

G|-------------------------------------4-5-7-7/9--------7/9-7\5-7/9~---7\5-4-----|

D|-------------------5----5h7-----(5)------------5-------------------------------|

A|------3-3--5-5/7-----7------5h7------------------------------------------------|

E|-5-5---------------------------------------------------------------------------|

e|---------------------------------------------------------------------8----------10b12~-12-10b12r10-10-8------|

B|------------------------------------8~------10p8--------10hp8-8-8h10----8h10-8--------------------------10---|

G|-7b8-5-5h9-7-4~-----5-5h7-5-4-5-7/9--------------7h9-------------------------------------------------------9-|

D|-------------------------------------------------------------------------------------------------------------|

A|-------------------------------------------------------------------------------------------------------------|

E|-------------------------------------------------------------------------------------------------------------|

e|----------------8---------------------------|

B|-------------/8---------8h10--8h10----------|

G|-9-9--7-5-4--/9----7h9--------7h9---7\5-4~--|

D|--------------------------------------------|

A|--------------------------------------------|

E|--------------------------------------------|

G             F(add9)            C

And I want to wake up with the rain

C

Falling on a tin roof

G         F(add9)             C

While I'm safe there in your arms

             G       C

So all I ask is for you

C        Am7                   C     Am7

To come away with me in the night

C    G          C

Come away with me

 

Thursday the 2nd. CJ2O - Joomla Site Templates